ISO-10303-21;
HEADER;
FILE_DESCRIPTION (( 'STEP AP203' ),
    '1' );
FILE_NAME ('Q-AZHWP-10-1030-M.STEP',
    '2020-12-22T09:05:05',
    ( '' ),
    ( '' ),
    'SwSTEP 2.0',
    'SolidWorks 2020',
    '' );
FILE_SCHEMA (( 'CONFIG_CONTROL_DESIGN' ));
ENDSEC;

DATA;
#1 = FACE_OUTER_BOUND ( 'NONE', #62, .T. ) ;
#2 = EDGE_LOOP ( 'NONE', ( #239, #194, #33, #81 ) ) ;
#3 =( LENGTH_UNIT ( ) NAMED_UNIT ( * ) SI_UNIT ( .MILLI., .METRE. ) );
#4 = EDGE_LOOP ( 'NONE', ( #13, #312 ) ) ;
#5 = ORIENTED_EDGE ( 'NONE', *, *, #25, .T. ) ;
#6 = COORDINATED_UNIVERSAL_TIME_OFFSET ( 8, 0, .AHEAD. ) ;
#7 = DIRECTION ( 'NONE',  ( -1.000000000000000000, -0.000000000000000000, -0.000000000000000000 ) ) ;
#8 = AXIS2_PLACEMENT_3D ( 'NONE', #334, #281, #49 ) ;
#9 = ORIENTED_EDGE ( 'NONE', *, *, #43, .T. ) ;
#10 = CARTESIAN_POINT ( 'NONE',  ( 3.000000000000000000, 0.000000000000000000, 0.000000000000000000 ) ) ;
#11 = APPROVAL_STATUS ( 'not_yet_approved' ) ;
#12 = CARTESIAN_POINT ( 'NONE',  ( -1.250000000000000222, 0.000000000000000000, 0.000000000000000000 ) ) ;
#13 = ORIENTED_EDGE ( 'NONE', *, *, #52, .F. ) ;
#14 = FACE_OUTER_BOUND ( 'NONE', #264, .T. ) ;
#15 = DATE_TIME_ROLE ( 'classification_date' ) ;
#16 = DIRECTION ( 'NONE',  ( -1.000000000000000000, -0.000000000000000000, -0.000000000000000000 ) ) ;
#17 = FACE_OUTER_BOUND ( 'NONE', #288, .T. ) ;
#18 = DIRECTION ( 'NONE',  ( -1.000000000000000000, -0.000000000000000000, -0.000000000000000000 ) ) ;
#19 = VECTOR ( 'NONE', #198, 1000.000000000000000 ) ;
#20 = ADVANCED_FACE ( 'NONE', ( #36 ), #65, .F. ) ;
#21 = DATE_TIME_ROLE ( 'creation_date' ) ;
#22 = DIRECTION ( 'NONE',  ( -1.000000000000000000, -0.000000000000000000, -0.000000000000000000 ) ) ;
#23 = EDGE_CURVE ( 'NONE', #199, #155, #316, .T. ) ;
#24 =( GEOMETRIC_REPRESENTATION_CONTEXT ( 3 ) GLOBAL_UNCERTAINTY_ASSIGNED_CONTEXT ( ( #279 ) ) GLOBAL_UNIT_ASSIGNED_CONTEXT ( ( #3, #242, #54 ) ) REPRESENTATION_CONTEXT ( 'NONE', 'WORKASPACE' ) );
#25 = EDGE_CURVE ( 'NONE', #155, #199, #228, .T. ) ;
#26 = CARTESIAN_POINT ( 'NONE',  ( -3.000000000000000000, 1.555301434917138433E-15, -12.69999999999999929 ) ) ;
#27 = CARTESIAN_POINT ( 'NONE',  ( 3.000000000000000000, 1.555301434917138433E-15, -12.69999999999999929 ) ) ;
#28 = AXIS2_PLACEMENT_3D ( 'NONE', #12, #108, #180 ) ;
#29 = EDGE_LOOP ( 'NONE', ( #144, #293, #173, #57 ) ) ;
#30 = CYLINDRICAL_SURFACE ( 'NONE', #329, 5.000000000000000888 ) ;
#31 = ORIENTED_EDGE ( 'NONE', *, *, #120, .T. ) ;
#32 = DIRECTION ( 'NONE',  ( 0.000000000000000000, 0.000000000000000000, 1.000000000000000000 ) ) ;
#33 = ORIENTED_EDGE ( 'NONE', *, *, #142, .T. ) ;
#34 = CIRCLE ( 'NONE', #232, 12.69999999999999929 ) ;
#35 = APPROVAL_STATUS ( 'not_yet_approved' ) ;
#36 = FACE_OUTER_BOUND ( 'NONE', #59, .T. ) ;
#37 = VERTEX_POINT ( 'NONE', #224 ) ;
#38 = DIRECTION ( 'NONE',  ( 0.000000000000000000, 0.000000000000000000, 1.000000000000000000 ) ) ;
#39 = PERSON_AND_ORGANIZATION ( #237, #305 ) ;
#40 = DIRECTION ( 'NONE',  ( -1.000000000000000000, 0.000000000000000000, -0.000000000000000000 ) ) ;
#41 = CALENDAR_DATE ( 2020, 22, 12 ) ;
#42 = DIRECTION ( 'NONE',  ( -1.000000000000000000, -0.000000000000000000, -0.000000000000000000 ) ) ;
#43 = EDGE_CURVE ( 'NONE', #176, #83, #58, .T. ) ;
#44 = CARTESIAN_POINT ( 'NONE',  ( -1.614212418857619014, 0.000000000000000000, 5.000000000000000888 ) ) ;
#45 = PRODUCT_RELATED_PRODUCT_CATEGORY ( 'detail', '', ( #206 ) ) ;
#46 = CC_DESIGN_APPROVAL ( #168, ( #302 ) ) ;
#47 = ADVANCED_FACE ( 'NONE', ( #85, #322 ), #203, .F. ) ;
#48 = DIRECTION ( 'NONE',  ( 1.000000000000000000, 0.000000000000000000, 0.000000000000000000 ) ) ;
#49 = DIRECTION ( 'NONE',  ( 0.000000000000000000, 0.000000000000000000, 1.000000000000000000 ) ) ;
#50 = EDGE_CURVE ( 'NONE', #241, #319, #266, .T. ) ;
#51 = CIRCLE ( 'NONE', #97, 5.000000000000000000 ) ;
#52 = EDGE_CURVE ( 'NONE', #148, #241, #163, .T. ) ;
#53 = ORIENTED_EDGE ( 'NONE', *, *, #131, .T. ) ;
#54 =( NAMED_UNIT ( * ) SI_UNIT ( $, .STERADIAN. ) SOLID_ANGLE_UNIT ( ) );
#55 = VECTOR ( 'NONE', #96, 1000.000000000000000 ) ;
#56 = DIRECTION ( 'NONE',  ( -1.000000000000000000, -0.000000000000000000, -0.000000000000000000 ) ) ;
#57 = ORIENTED_EDGE ( 'NONE', *, *, #120, .F. ) ;
#58 = LINE ( 'NONE', #248, #19 ) ;
#59 = EDGE_LOOP ( 'NONE', ( #86, #5, #31, #289 ) ) ;
#60 = APPLICATION_PROTOCOL_DEFINITION ( 'international standard', 'config_control_design', 1994, #138 ) ;
#61 = CARTESIAN_POINT ( 'NONE',  ( -1.614212418857619014, 0.000000000000000000, 0.000000000000000000 ) ) ;
#62 = EDGE_LOOP ( 'NONE', ( #285, #172 ) ) ;
#63 = AXIS2_PLACEMENT_3D ( 'NONE', #230, #22, #207 ) ;
#64 = APPROVAL_ROLE ( '' ) ;
#65 = CYLINDRICAL_SURFACE ( 'NONE', #189, 5.000000000000000888 ) ;
#66 = CALENDAR_DATE ( 2020, 22, 12 ) ;
#67 = ADVANCED_FACE ( 'NONE', ( #1 ), #270, .F. ) ;
#68 = DIRECTION ( 'NONE',  ( 1.000000000000000000, 0.000000000000000000, 0.000000000000000000 ) ) ;
#69 = PERSON_AND_ORGANIZATION ( #237, #305 ) ;
#70 = DIRECTION ( 'NONE',  ( 0.000000000000000000, 0.000000000000000000, 1.000000000000000000 ) ) ;
#71 = AXIS2_PLACEMENT_3D ( 'NONE', #254, #18, #128 ) ;
#72 = APPROVAL_PERSON_ORGANIZATION ( #226, #168, #112 ) ;
#73 = EDGE_CURVE ( 'NONE', #176, #271, #75, .T. ) ;
#74 = PLANE ( 'NONE',  #256 ) ;
#75 = CIRCLE ( 'NONE', #132, 5.000000000000001776 ) ;
#76 = SECURITY_CLASSIFICATION ( '', '', #291 ) ;
#77 = DIRECTION ( 'NONE',  ( -1.000000000000000000, -0.000000000000000000, -0.000000000000000000 ) ) ;
#78 = CARTESIAN_POINT ( 'NONE',  ( -3.000000000000000000, 6.123233995736766282E-16, -5.000000000000000000 ) ) ;
#79 = VECTOR ( 'NONE', #77, 1000.000000000000000 ) ;
#80 = ADVANCED_FACE ( 'NONE', ( #193 ), #30, .F. ) ;
#81 = ORIENTED_EDGE ( 'NONE', *, *, #201, .F. ) ;
#82 = DIRECTION ( 'NONE',  ( 0.000000000000000000, 0.000000000000000000, 1.000000000000000000 ) ) ;
#83 = VERTEX_POINT ( 'NONE', #113 ) ;
#84 = MANIFOLD_SOLID_BREP ( 'Ðý×', #261 ) ;
#85 = FACE_OUTER_BOUND ( 'NONE', #4, .T. ) ;
#86 = ORIENTED_EDGE ( 'NONE', *, *, #331, .F. ) ;
#87 = DIRECTION ( 'NONE',  ( -1.000000000000000000, -0.000000000000000000, -0.000000000000000000 ) ) ;
#88 = ORIENTED_EDGE ( 'NONE', *, *, #50, .T. ) ;
#89 = CYLINDRICAL_SURFACE ( 'NONE', #166, 5.000000000000000888 ) ;
#90 = CC_DESIGN_PERSON_AND_ORGANIZATION_ASSIGNMENT ( #39, #127, ( #302 ) ) ;
#91 = CALENDAR_DATE ( 2020, 22, 12 ) ;
#92 = DIRECTION ( 'NONE',  ( 0.000000000000000000, 0.000000000000000000, -1.000000000000000000 ) ) ;
#93 = ORIENTED_EDGE ( 'NONE', *, *, #134, .T. ) ;
#94 = CARTESIAN_POINT ( 'NONE',  ( 3.000000000000000000, 0.000000000000000000, 12.69999999999999929 ) ) ;
#95 = APPROVAL_ROLE ( '' ) ;
#96 = DIRECTION ( 'NONE',  ( -1.000000000000000000, -0.000000000000000000, -0.000000000000000000 ) ) ;
#97 = AXIS2_PLACEMENT_3D ( 'NONE', #135, #136, #233 ) ;
#98 = PRODUCT_DEFINITION ( 'UNKNOWN', '', #302, #121 ) ;
#99 = CARTESIAN_POINT ( 'NONE',  ( -1.614212418857619014, 0.000000000000000000, 5.000000000000000888 ) ) ;
#100 = AXIS2_PLACEMENT_3D ( 'NONE', #299, #68, #301 ) ;
#101 = FACE_BOUND ( 'NONE', #314, .T. ) ;
#102 = ADVANCED_FACE ( 'NONE', ( #196 ), #318, .F. ) ;
#103 = VECTOR ( 'NONE', #209, 1000.000000000000000 ) ;
#104 = APPROVAL_PERSON_ORGANIZATION ( #202, #204, #64 ) ;
#105 = ORIENTED_EDGE ( 'NONE', *, *, #43, .F. ) ;
#106 = DIRECTION ( 'NONE',  ( -1.000000000000000000, -0.000000000000000000, -0.000000000000000000 ) ) ;
#107 = CC_DESIGN_PERSON_AND_ORGANIZATION_ASSIGNMENT ( #69, #300, ( #206 ) ) ;
#108 = DIRECTION ( 'NONE',  ( 1.000000000000000000, 0.000000000000000000, 0.000000000000000000 ) ) ;
#109 = ORIENTED_EDGE ( 'NONE', *, *, #73, .F. ) ;
#110 = ORIENTED_EDGE ( 'NONE', *, *, #229, .T. ) ;
#111 = AXIS2_PLACEMENT_3D ( 'NONE', #275, #40, #251 ) ;
#112 = APPROVAL_ROLE ( '' ) ;
#113 = CARTESIAN_POINT ( 'NONE',  ( 1.250000000000000444, 6.123233995736766282E-16, -5.000000000000000000 ) ) ;
#114 = ORIENTED_EDGE ( 'NONE', *, *, #335, .F. ) ;
#115 = CARTESIAN_POINT ( 'NONE',  ( -1.250000000000000222, 6.123233995736767268E-16, -5.000000000000000888 ) ) ;
#116 = PERSON_AND_ORGANIZATION ( #237, #305 ) ;
#117 = ORIENTED_EDGE ( 'NONE', *, *, #23, .F. ) ;
#118 = VERTEX_POINT ( 'NONE', #181 ) ;
#119 = CARTESIAN_POINT ( 'NONE',  ( -3.000000000000000000, 0.000000000000000000, 0.000000000000000000 ) ) ;
#120 = EDGE_CURVE ( 'NONE', #199, #244, #153, .T. ) ;
#121 = DESIGN_CONTEXT ( 'detailed design', #138, 'design' ) ;
#122 = SHAPE_DEFINITION_REPRESENTATION ( #231, #307 ) ;
#123 = DIRECTION ( 'NONE',  ( 0.000000000000000000, 0.000000000000000000, 1.000000000000000000 ) ) ;
#124 = LINE ( 'NONE', #250, #55 ) ;
#125 = AXIS2_PLACEMENT_3D ( 'NONE', #61, #175, #183 ) ;
#126 = CIRCLE ( 'NONE', #178, 12.69999999999999929 ) ;
#127 = PERSON_AND_ORGANIZATION_ROLE ( 'creator' ) ;
#128 = DIRECTION ( 'NONE',  ( 0.000000000000000000, 0.000000000000000000, 1.000000000000000000 ) ) ;
#129 = COORDINATED_UNIVERSAL_TIME_OFFSET ( 8, 0, .AHEAD. ) ;
#130 = CARTESIAN_POINT ( 'NONE',  ( -1.250000000000000222, 0.000000000000000000, 5.000000000000000888 ) ) ;
#131 = EDGE_CURVE ( 'NONE', #37, #319, #303, .T. ) ;
#132 = AXIS2_PLACEMENT_3D ( 'NONE', #143, #238, #82 ) ;
#133 = CC_DESIGN_PERSON_AND_ORGANIZATION_ASSIGNMENT ( #116, #174, ( #76 ) ) ;
#134 = EDGE_CURVE ( 'NONE', #271, #176, #137, .T. ) ;
#135 = CARTESIAN_POINT ( 'NONE',  ( 1.250000000000000444, 0.000000000000000000, 0.000000000000000000 ) ) ;
#136 = DIRECTION ( 'NONE',  ( -1.000000000000000000, -0.000000000000000000, -0.000000000000000000 ) ) ;
#137 = CIRCLE ( 'NONE', #170, 5.000000000000001776 ) ;
#138 = APPLICATION_CONTEXT ( 'configuration controlled 3d designs of mechanical parts and assemblies' ) ;
#139 = LOCAL_TIME ( 17, 5, 5.000000000000000000, #6 ) ;
#140 = ADVANCED_FACE ( 'NONE', ( #17 ), #296, .T. ) ;
#141 = ORIENTED_EDGE ( 'NONE', *, *, #131, .F. ) ;
#142 = EDGE_CURVE ( 'NONE', #148, #37, #124, .T. ) ;
#143 = CARTESIAN_POINT ( 'NONE',  ( 3.000000000000000000, 0.000000000000000000, 0.000000000000000000 ) ) ;
#144 = ORIENTED_EDGE ( 'NONE', *, *, #23, .T. ) ;
#145 = DIRECTION ( 'NONE',  ( 1.000000000000000000, 0.000000000000000000, 0.000000000000000000 ) ) ;
#146 = APPROVAL_DATE_TIME ( #274, #168 ) ;
#147 = DIRECTION ( 'NONE',  ( 0.000000000000000000, 0.000000000000000000, 1.000000000000000000 ) ) ;
#148 = VERTEX_POINT ( 'NONE', #94 ) ;
#149 = AXIS2_PLACEMENT_3D ( 'NONE', #292, #227, #151 ) ;
#150 = PERSON_AND_ORGANIZATION ( #237, #305 ) ;
#151 = DIRECTION ( 'NONE',  ( -0.000000000000000000, 0.000000000000000000, 1.000000000000000000 ) ) ;
#152 = EDGE_LOOP ( 'NONE', ( #53, #262 ) ) ;
#153 = LINE ( 'NONE', #44, #273 ) ;
#154 = COORDINATED_UNIVERSAL_TIME_OFFSET ( 8, 0, .AHEAD. ) ;
#155 = VERTEX_POINT ( 'NONE', #115 ) ;
#156 = DATE_AND_TIME ( #91, #325 ) ;
#157 = DIRECTION ( 'NONE',  ( -1.000000000000000000, -0.000000000000000000, -0.000000000000000000 ) ) ;
#158 = CIRCLE ( 'NONE', #333, 5.000000000000000000 ) ;
#159 = AXIS2_PLACEMENT_3D ( 'NONE', #263, #287, #92 ) ;
#160 = CALENDAR_DATE ( 2020, 22, 12 ) ;
#161 = DIRECTION ( 'NONE',  ( 0.000000000000000000, 0.000000000000000000, 1.000000000000000000 ) ) ;
#162 = CC_DESIGN_DATE_AND_TIME_ASSIGNMENT ( #276, #15, ( #76 ) ) ;
#163 = CIRCLE ( 'NONE', #195, 12.69999999999999929 ) ;
#164 = CARTESIAN_POINT ( 'NONE',  ( 3.000000000000000000, 0.000000000000000000, 5.000000000000001776 ) ) ;
#165 = FACE_OUTER_BOUND ( 'NONE', #2, .T. ) ;
#166 = AXIS2_PLACEMENT_3D ( 'NONE', #185, #200, #38 ) ;
#167 = ADVANCED_FACE ( 'NONE', ( #14 ), #278, .F. ) ;
#168 = APPROVAL ( #35, 'UNSPECIFIED' ) ;
#169 = EDGE_LOOP ( 'NONE', ( #109, #9, #315, #220 ) ) ;
#170 = AXIS2_PLACEMENT_3D ( 'NONE', #10, #252, #258 ) ;
#171 = CARTESIAN_POINT ( 'NONE',  ( -1.614212418857619014, 0.000000000000000000, 0.000000000000000000 ) ) ;
#172 = ORIENTED_EDGE ( 'NONE', *, *, #323, .F. ) ;
#173 = ORIENTED_EDGE ( 'NONE', *, *, #211, .T. ) ;
#174 = PERSON_AND_ORGANIZATION_ROLE ( 'classification_officer' ) ;
#175 = DIRECTION ( 'NONE',  ( -1.000000000000000000, -0.000000000000000000, -0.000000000000000000 ) ) ;
#176 = VERTEX_POINT ( 'NONE', #320 ) ;
#177 = CARTESIAN_POINT ( 'NONE',  ( 3.000000000000000000, 0.000000000000000000, 0.000000000000000000 ) ) ;
#178 = AXIS2_PLACEMENT_3D ( 'NONE', #119, #157, #161 ) ;
#179 = APPROVAL_DATE_TIME ( #156, #247 ) ;
#180 = DIRECTION ( 'NONE',  ( 0.000000000000000000, 0.000000000000000000, -1.000000000000000000 ) ) ;
#181 = CARTESIAN_POINT ( 'NONE',  ( 1.250000000000000444, 0.000000000000000000, 5.000000000000000000 ) ) ;
#182 = CC_DESIGN_DATE_AND_TIME_ASSIGNMENT ( #219, #21, ( #98 ) ) ;
#183 = DIRECTION ( 'NONE',  ( 0.000000000000000000, 0.000000000000000000, 1.000000000000000000 ) ) ;
#184 = PERSON_AND_ORGANIZATION ( #237, #305 ) ;
#185 = CARTESIAN_POINT ( 'NONE',  ( -1.614212418857619014, 0.000000000000000000, 0.000000000000000000 ) ) ;
#186 = CIRCLE ( 'NONE', #71, 5.000000000000000000 ) ;
#187 = LOCAL_TIME ( 17, 5, 5.000000000000000000, #317 ) ;
#188 = CYLINDRICAL_SURFACE ( 'NONE', #8, 12.69999999999999929 ) ;
#189 = AXIS2_PLACEMENT_3D ( 'NONE', #171, #87, #147 ) ;
#190 = FACE_OUTER_BOUND ( 'NONE', #152, .T. ) ;
#191 = MECHANICAL_CONTEXT ( 'NONE', #282, 'mechanical' ) ;
#192 = EDGE_CURVE ( 'NONE', #241, #148, #34, .T. ) ;
#193 = FACE_OUTER_BOUND ( 'NONE', #221, .T. ) ;
#194 = ORIENTED_EDGE ( 'NONE', *, *, #192, .T. ) ;
#195 = AXIS2_PLACEMENT_3D ( 'NONE', #311, #16, #123 ) ;
#196 = FACE_OUTER_BOUND ( 'NONE', #29, .T. ) ;
#197 = ORIENTED_EDGE ( 'NONE', *, *, #211, .F. ) ;
#198 = DIRECTION ( 'NONE',  ( -1.000000000000000000, -0.000000000000000000, -0.000000000000000000 ) ) ;
#199 = VERTEX_POINT ( 'NONE', #130 ) ;
#200 = DIRECTION ( 'NONE',  ( -1.000000000000000000, -0.000000000000000000, -0.000000000000000000 ) ) ;
#201 = EDGE_CURVE ( 'NONE', #319, #37, #126, .T. ) ;
#202 = PERSON_AND_ORGANIZATION ( #237, #305 ) ;
#203 = PLANE ( 'NONE',  #111 ) ;
#204 = APPROVAL ( #253, 'UNSPECIFIED' ) ;
#205 = DIRECTION ( 'NONE',  ( 0.000000000000000000, 0.000000000000000000, 1.000000000000000000 ) ) ;
#206 = PRODUCT ( 'Q-AZHWP-10-1030-M', 'Q-AZHWP-10-1030-M', '', ( #191 ) ) ;
#207 = DIRECTION ( 'NONE',  ( 0.000000000000000000, 0.000000000000000000, 1.000000000000000000 ) ) ;
#208 = APPROVAL_PERSON_ORGANIZATION ( #246, #247, #95 ) ;
#209 = DIRECTION ( 'NONE',  ( -1.000000000000000000, -0.000000000000000000, -0.000000000000000000 ) ) ;
#210 = CC_DESIGN_APPROVAL ( #247, ( #76 ) ) ;
#211 = EDGE_CURVE ( 'NONE', #290, #244, #186, .T. ) ;
#212 = ORIENTED_EDGE ( 'NONE', *, *, #142, .F. ) ;
#213 = DIRECTION ( 'NONE',  ( 0.000000000000000000, 0.000000000000000000, 1.000000000000000000 ) ) ;
#214 = ORIENTED_EDGE ( 'NONE', *, *, #134, .F. ) ;
#215 = APPLICATION_PROTOCOL_DEFINITION ( 'international standard', 'config_control_design', 1994, #282 ) ;
#216 = DIRECTION ( 'NONE',  ( 0.000000000000000000, 0.000000000000000000, 1.000000000000000000 ) ) ;
#217 = ORIENTED_EDGE ( 'NONE', *, *, #52, .T. ) ;
#218 = AXIS2_PLACEMENT_3D ( 'NONE', #265, #32, #145 ) ;
#219 = DATE_AND_TIME ( #41, #236 ) ;
#220 = ORIENTED_EDGE ( 'NONE', *, *, #328, .F. ) ;
#221 = EDGE_LOOP ( 'NONE', ( #105, #214, #249, #110 ) ) ;
#222 = CARTESIAN_POINT ( 'NONE',  ( -1.614212418857619014, 0.000000000000000000, 0.000000000000000000 ) ) ;
#223 = CALENDAR_DATE ( 2020, 22, 12 ) ;
#224 = CARTESIAN_POINT ( 'NONE',  ( -3.000000000000000000, 0.000000000000000000, 12.69999999999999929 ) ) ;
#225 = ORIENTED_EDGE ( 'NONE', *, *, #73, .T. ) ;
#226 = PERSON_AND_ORGANIZATION ( #237, #305 ) ;
#227 = DIRECTION ( 'NONE',  ( -1.000000000000000000, 0.000000000000000000, -0.000000000000000000 ) ) ;
#228 = CIRCLE ( 'NONE', #28, 5.000000000000000888 ) ;
#229 = EDGE_CURVE ( 'NONE', #118, #83, #283, .T. ) ;
#230 = CARTESIAN_POINT ( 'NONE',  ( 1.250000000000000444, 0.000000000000000000, 0.000000000000000000 ) ) ;
#231 = PRODUCT_DEFINITION_SHAPE ( 'NONE', 'NONE',  #98 ) ;
#232 = AXIS2_PLACEMENT_3D ( 'NONE', #177, #42, #70 ) ;
#233 = DIRECTION ( 'NONE',  ( 0.000000000000000000, 0.000000000000000000, 1.000000000000000000 ) ) ;
#234 = ADVANCED_FACE ( 'NONE', ( #294 ), #89, .F. ) ;
#235 = LINE ( 'NONE', #304, #79 ) ;
#236 = LOCAL_TIME ( 17, 5, 5.000000000000000000, #321 ) ;
#237 = PERSON ( 'UNSPECIFIED', 'UNSPECIFIED', 'UNSPECIFIED', ('UNSPECIFIED'), ('UNSPECIFIED'), ('UNSPECIFIED') ) ;
#238 = DIRECTION ( 'NONE',  ( -1.000000000000000000, -0.000000000000000000, -0.000000000000000000 ) ) ;
#239 = ORIENTED_EDGE ( 'NONE', *, *, #50, .F. ) ;
#240 = CARTESIAN_POINT ( 'NONE',  ( -1.614212418857619014, 0.000000000000000000, 0.000000000000000000 ) ) ;
#241 = VERTEX_POINT ( 'NONE', #27 ) ;
#242 =( NAMED_UNIT ( * ) PLANE_ANGLE_UNIT ( ) SI_UNIT ( $, .RADIAN. ) );
#243 = CARTESIAN_POINT ( 'NONE',  ( -1.614212418857619014, 1.555301434917138433E-15, -12.69999999999999929 ) ) ;
#244 = VERTEX_POINT ( 'NONE', #306 ) ;
#245 = DIRECTION ( 'NONE',  ( -1.000000000000000000, -0.000000000000000000, -0.000000000000000000 ) ) ;
#246 = PERSON_AND_ORGANIZATION ( #237, #305 ) ;
#247 = APPROVAL ( #11, 'UNSPECIFIED' ) ;
#248 = CARTESIAN_POINT ( 'NONE',  ( -1.614212418857619014, 6.123233995736767268E-16, -5.000000000000000888 ) ) ;
#249 = ORIENTED_EDGE ( 'NONE', *, *, #328, .T. ) ;
#250 = CARTESIAN_POINT ( 'NONE',  ( -1.614212418857619014, 0.000000000000000000, 12.69999999999999929 ) ) ;
#251 = DIRECTION ( 'NONE',  ( -0.000000000000000000, 0.000000000000000000, 1.000000000000000000 ) ) ;
#252 = DIRECTION ( 'NONE',  ( -1.000000000000000000, -0.000000000000000000, -0.000000000000000000 ) ) ;
#253 = APPROVAL_STATUS ( 'not_yet_approved' ) ;
#254 = CARTESIAN_POINT ( 'NONE',  ( -3.000000000000000000, 0.000000000000000000, 0.000000000000000000 ) ) ;
#255 = AXIS2_PLACEMENT_3D ( 'NONE', #222, #277, #205 ) ;
#256 = AXIS2_PLACEMENT_3D ( 'NONE', #280, #48, #259 ) ;
#257 = PERSON_AND_ORGANIZATION_ROLE ( 'creator' ) ;
#258 = DIRECTION ( 'NONE',  ( 0.000000000000000000, 0.000000000000000000, 1.000000000000000000 ) ) ;
#259 = DIRECTION ( 'NONE',  ( 0.000000000000000000, 0.000000000000000000, -1.000000000000000000 ) ) ;
#260 = ADVANCED_FACE ( 'NONE', ( #165 ), #188, .T. ) ;
#261 = CLOSED_SHELL ( 'NONE', ( #140, #102, #234, #67, #80, #20, #308, #260, #47, #167 ) ) ;
#262 = ORIENTED_EDGE ( 'NONE', *, *, #201, .T. ) ;
#263 = CARTESIAN_POINT ( 'NONE',  ( -1.250000000000000222, 0.000000000000000000, 0.000000000000000000 ) ) ;
#264 = EDGE_LOOP ( 'NONE', ( #117, #310 ) ) ;
#265 = CARTESIAN_POINT ( 'NONE',  ( 0.000000000000000000, 0.000000000000000000, 0.000000000000000000 ) ) ;
#266 = LINE ( 'NONE', #243, #297 ) ;
#267 = EDGE_LOOP ( 'NONE', ( #93, #225 ) ) ;
#268 = CC_DESIGN_PERSON_AND_ORGANIZATION_ASSIGNMENT ( #150, #326, ( #302 ) ) ;
#269 = APPROVAL_DATE_TIME ( #295, #204 ) ;
#270 = PLANE ( 'NONE',  #149 ) ;
#271 = VERTEX_POINT ( 'NONE', #164 ) ;
#272 = DIRECTION ( 'NONE',  ( 0.000000000000000000, 0.000000000000000000, 1.000000000000000000 ) ) ;
#273 = VECTOR ( 'NONE', #327, 1000.000000000000000 ) ;
#274 = DATE_AND_TIME ( #160, #139 ) ;
#275 = CARTESIAN_POINT ( 'NONE',  ( 3.000000000000000000, 12.69999999999999929, 0.000000000000000000 ) ) ;
#276 = DATE_AND_TIME ( #66, #187 ) ;
#277 = DIRECTION ( 'NONE',  ( -1.000000000000000000, -0.000000000000000000, -0.000000000000000000 ) ) ;
#278 = PLANE ( 'NONE',  #100 ) ;
#279 = UNCERTAINTY_MEASURE_WITH_UNIT (LENGTH_MEASURE( 1.000000000000000082E-05 ), #3, 'distance_accuracy_value', 'NONE');
#280 = CARTESIAN_POINT ( 'NONE',  ( -3.000000000000000000, 5.000000000000000000, 0.000000000000000000 ) ) ;
#281 = DIRECTION ( 'NONE',  ( -1.000000000000000000, -0.000000000000000000, -0.000000000000000000 ) ) ;
#282 = APPLICATION_CONTEXT ( 'configuration controlled 3d designs of mechanical parts and assemblies' ) ;
#283 = CIRCLE ( 'NONE', #63, 5.000000000000000000 ) ;
#284 = CC_DESIGN_PERSON_AND_ORGANIZATION_ASSIGNMENT ( #184, #257, ( #98 ) ) ;
#285 = ORIENTED_EDGE ( 'NONE', *, *, #229, .F. ) ;
#286 = CARTESIAN_POINT ( 'NONE',  ( -3.000000000000000000, 0.000000000000000000, 0.000000000000000000 ) ) ;
#287 = DIRECTION ( 'NONE',  ( 1.000000000000000000, 0.000000000000000000, 0.000000000000000000 ) ) ;
#288 = EDGE_LOOP ( 'NONE', ( #217, #88, #141, #212 ) ) ;
#289 = ORIENTED_EDGE ( 'NONE', *, *, #335, .T. ) ;
#290 = VERTEX_POINT ( 'NONE', #78 ) ;
#291 = SECURITY_CLASSIFICATION_LEVEL ( 'unclassified' ) ;
#292 = CARTESIAN_POINT ( 'NONE',  ( 1.250000000000000222, 5.000000000000000000, 0.000000000000000000 ) ) ;
#293 = ORIENTED_EDGE ( 'NONE', *, *, #331, .T. ) ;
#294 = FACE_OUTER_BOUND ( 'NONE', #169, .T. ) ;
#295 = DATE_AND_TIME ( #223, #298 ) ;
#296 = CYLINDRICAL_SURFACE ( 'NONE', #255, 12.69999999999999929 ) ;
#297 = VECTOR ( 'NONE', #7, 1000.000000000000000 ) ;
#298 = LOCAL_TIME ( 17, 5, 5.000000000000000000, #129 ) ;
#299 = CARTESIAN_POINT ( 'NONE',  ( -1.250000000000000222, 5.000000000000000000, 0.000000000000000000 ) ) ;
#300 = PERSON_AND_ORGANIZATION_ROLE ( 'design_owner' ) ;
#301 = DIRECTION ( 'NONE',  ( 0.000000000000000000, 0.000000000000000000, -1.000000000000000000 ) ) ;
#302 = PRODUCT_DEFINITION_FORMATION_WITH_SPECIFIED_SOURCE ( 'ANY', '', #206, .NOT_KNOWN. ) ;
#303 = CIRCLE ( 'NONE', #313, 12.69999999999999929 ) ;
#304 = CARTESIAN_POINT ( 'NONE',  ( -1.614212418857619014, 6.123233995736767268E-16, -5.000000000000000888 ) ) ;
#305 = ORGANIZATION ( 'UNSPECIFIED', 'UNSPECIFIED', '' ) ;
#306 = CARTESIAN_POINT ( 'NONE',  ( -3.000000000000000000, 0.000000000000000000, 5.000000000000000000 ) ) ;
#307 = ADVANCED_BREP_SHAPE_REPRESENTATION ( 'Q-AZHWP-10-1030-M', ( #84, #218 ), #24 ) ;
#308 = ADVANCED_FACE ( 'NONE', ( #101, #190 ), #74, .F. ) ;
#309 = CC_DESIGN_APPROVAL ( #204, ( #98 ) ) ;
#310 = ORIENTED_EDGE ( 'NONE', *, *, #25, .F. ) ;
#311 = CARTESIAN_POINT ( 'NONE',  ( 3.000000000000000000, 0.000000000000000000, 0.000000000000000000 ) ) ;
#312 = ORIENTED_EDGE ( 'NONE', *, *, #192, .F. ) ;
#313 = AXIS2_PLACEMENT_3D ( 'NONE', #324, #245, #272 ) ;
#314 = EDGE_LOOP ( 'NONE', ( #114, #197 ) ) ;
#315 = ORIENTED_EDGE ( 'NONE', *, *, #323, .T. ) ;
#316 = CIRCLE ( 'NONE', #159, 5.000000000000000888 ) ;
#317 = COORDINATED_UNIVERSAL_TIME_OFFSET ( 8, 0, .AHEAD. ) ;
#318 = CYLINDRICAL_SURFACE ( 'NONE', #125, 5.000000000000000888 ) ;
#319 = VERTEX_POINT ( 'NONE', #26 ) ;
#320 = CARTESIAN_POINT ( 'NONE',  ( 3.000000000000000000, 6.123233995736768255E-16, -5.000000000000001776 ) ) ;
#321 = COORDINATED_UNIVERSAL_TIME_OFFSET ( 8, 0, .AHEAD. ) ;
#322 = FACE_BOUND ( 'NONE', #267, .T. ) ;
#323 = EDGE_CURVE ( 'NONE', #83, #118, #51, .T. ) ;
#324 = CARTESIAN_POINT ( 'NONE',  ( -3.000000000000000000, 0.000000000000000000, 0.000000000000000000 ) ) ;
#325 = LOCAL_TIME ( 17, 5, 5.000000000000000000, #154 ) ;
#326 = PERSON_AND_ORGANIZATION_ROLE ( 'design_supplier' ) ;
#327 = DIRECTION ( 'NONE',  ( -1.000000000000000000, -0.000000000000000000, -0.000000000000000000 ) ) ;
#328 = EDGE_CURVE ( 'NONE', #271, #118, #332, .T. ) ;
#329 = AXIS2_PLACEMENT_3D ( 'NONE', #240, #56, #216 ) ;
#330 = CC_DESIGN_SECURITY_CLASSIFICATION ( #76, ( #302 ) ) ;
#331 = EDGE_CURVE ( 'NONE', #155, #290, #235, .T. ) ;
#332 = LINE ( 'NONE', #99, #103 ) ;
#333 = AXIS2_PLACEMENT_3D ( 'NONE', #286, #106, #213 ) ;
#334 = CARTESIAN_POINT ( 'NONE',  ( -1.614212418857619014, 0.000000000000000000, 0.000000000000000000 ) ) ;
#335 = EDGE_CURVE ( 'NONE', #244, #290, #158, .T. ) ;
ENDSEC;
END-ISO-10303-21;
